Scorpions - Rock You Like A Hurricane (var.12) Bass tab download free or play online

Bass tab for Rock You Like A Hurricane (var.12) by Scorpions free download and read or play online: file .txt, 1.12 kb has 420 views and 0 downloads.

Download bass tab "Rock You Like A Hurricane (var.12)" (Scorpions)

Scorpions Band name
Rock You Like A Hurricane Song name
Bass tabs Tab type
1.12 kb File size
.TXT File type
420 views
0 downloads
 
Are you robot?

Rock You Like A Hurricane (var.12) bass tab read and play online

                    Starts off with just the guiar then the bass comes in with the drums

G|---------------------------------------------------------------------|
D|---------------------------------------------------------------------|
A|---------------------------------------------------------------------|
E|0-------0--------0-------0-------0--------0---------0-------0--------|


Chorus
G|----------------------|
D|----------------------|
A|---------------3-55---|
E|---000--33--55--------|

Verse 
G|-----------------------------------------------|
D|-----------------------------------------------|
A|----33--777--33--755------33--777--33--555-----|
E|-----------------------------------------------|                    

Comments for bass tab — Rock You Like A Hurricane (var.12) (Scorpions)

Other Rock You Like A Hurricane (var.12) by Scorpions tabs:

Last viewed Scorpions tabs: