Scorpions - Rock You Like A Hurricane (var.26) Guitar tab download free or play online

Guitar tab for Rock You Like A Hurricane (var.26) by Scorpions free download and read or play online: file .txt, 1.45 kb has 292 views and 1 downloads.

Download guitar tab "Rock You Like A Hurricane (var.26)" (Scorpions)

Scorpions Band name
Rock You Like A Hurricane Song name
Guitar tabs Tab type
1.45 kb File size
.TXT File type
292 views
1 downloads
 
Are you robot?

Rock You Like A Hurricane (var.26) guitar tab read and play online

                    



-----------------------------------------------------------------

Rock You Like a Hurricane - The Scorpions

-----------------------------------------------------------------

Tabbed by: Alex

Email: laughing_hippie@yahoo.com



Tuning: Standard

Intro:

G|----------|   |-------------------------|

D|----------|X4 |-------------------------|X4

A|----------|   |-------------------------|

E|--0-0-0-0-|   |-0-0-0-0-3-3-3-3-5-5-5-5-|

Verse 1:

G|---------------------------------------------------------------|

D|---------------------------------------------------------------|

A|--3-7-7-7-7-3-3-3-3-7-7-7-7-5--3-3-3-3-7-7-7-7-3-3-3-3-5-5-5-5-|

E|---------------------------------------------------------------|

Intro + Chorus:

G|--------------------------|  |---------------|

D|--------------------------|X4|---------------|

A|--------------------------|  |---------------|

E|--5-5-5-5-1-1-1-1-3-3-3-3-|  |--1-0-3-0-3-0--|

Verse 2:

G|-------------------------------------------------|

D|-------------------------------------------------|

A|-------------------------------------------------|

E|-5-3-5-5-3-5-5-3-5-5-3-5-5-3-5-5-3-5-5-3-5-5-3-5-|

Guitar:

G|--------------------------------------------------------|

D|----------2-0-------------------------------------------|

A|--------2-----3-2--3-3-3-3-5-7-7-7-7--------------------|

E|--0-0-3------------------------------0-3-0-3-0-3-0-3-0--|



                    

Comments for guitar tab — Rock You Like A Hurricane (var.26) (Scorpions)

Other Rock You Like A Hurricane (var.26) by Scorpions tabs:

Last viewed Scorpions tabs: